ISO-10303-21;
HEADER;
FILE_DESCRIPTION(('CATIA V5 STEP Exchange'),'2;1');

FILE_NAME('C:\\Users\\ermanno.bettoni\\Desktop\\44339CHU-MB.stp','2023-09-25T07:29:17+00:00',('none'),('none'),'CATIA Version 5-6 Release 2016 SP6','CATIA V5 STEP AP203','none');

FILE_SCHEMA(('CONFIG_CONTROL_DESIGN'));

ENDSEC;
DATA;
#5=PRODUCT('44339CHU-MB','','',(#2)) ;
#55=PRODUCT('RIFERIMENTO_VISTA','','',(#2)) ;
#99=PRODUCT('DD3825','','',(#2)) ;
#1=APPLICATION_CONTEXT('configuration controlled 3D design of mechanical parts and assemblies') ;
#17=PRODUCT_DEFINITION('',' ',#6,#3) ;
#19=SECURITY_CLASSIFICATION(' ',' ',#18) ;
#18=SECURITY_CLASSIFICATION_LEVEL('unclassified') ;
#61=CARTESIAN_POINT('Line Origine',(0.,19.7450162413,7.18659818692)) ;
#65=CARTESIAN_POINT('Limit',(0.,0.,0.)) ;
#66=CARTESIAN_POINT('Limit',(0.,39.4900324825,14.3731963738)) ;
#73=CARTESIAN_POINT('Line Origine',(5.37633192954,1.20990245183,-3.32417966615)) ;
#77=CARTESIAN_POINT('Limit',(-1.7763568394E-015,-4.4408920985E-016,-1.33226762955E-015)) ;
#78=CARTESIAN_POINT('Limit',(10.7526638591,2.41980490366,-6.6483593323)) ;
#89=CARTESIAN_POINT('NONE',(0.,0.,0.)) ;
#90=CARTESIAN_POINT('NONE',(0.,0.,0.)) ;
#106=CARTESIAN_POINT('Axis2P3D Location',(0.,43.,0.)) ;
#111=CARTESIAN_POINT('Line Origine',(0.,43.,-0.4)) ;
#115=CARTESIAN_POINT('Vertex',(-24.,43.,-0.4)) ;
#117=CARTESIAN_POINT('Vertex',(24.,43.,-0.4)) ;
#120=CARTESIAN_POINT('Line Origine',(-24.,43.,-5.55111512313E-017)) ;
#124=CARTESIAN_POINT('Vertex',(-24.,43.,0.4)) ;
#127=CARTESIAN_POINT('Line Origine',(0.,43.,0.4)) ;
#131=CARTESIAN_POINT('Vertex',(24.,43.,0.4)) ;
#134=CARTESIAN_POINT('Line Origine',(24.,43.,-5.55111512313E-017)) ;
#146=CARTESIAN_POINT('Axis2P3D Location',(-24.,40.,0.)) ;
#151=CARTESIAN_POINT('Axis2P3D Location',(-24.,40.,-0.4)) ;
#155=CARTESIAN_POINT('Vertex',(-27.,40.,-0.4)) ;
#158=CARTESIAN_POINT('Line Origine',(-27.,40.,0.)) ;
#162=CARTESIAN_POINT('Vertex',(-27.,40.,0.4)) ;
#165=CARTESIAN_POINT('Axis2P3D Location',(-24.,40.,0.4)) ;
#177=CARTESIAN_POINT('Axis2P3D Location',(-27.,0.,0.)) ;
#182=CARTESIAN_POINT('Line Origine',(-27.,0.,-0.4)) ;
#186=CARTESIAN_POINT('Vertex',(-27.,-40.,-0.4)) ;
#189=CARTESIAN_POINT('Line Origine',(-27.,-40.,-5.55111512313E-017)) ;
#193=CARTESIAN_POINT('Vertex',(-27.,-40.,0.4)) ;
#196=CARTESIAN_POINT('Line Origine',(-27.,0.,0.4)) ;
#208=CARTESIAN_POINT('Axis2P3D Location',(0.,0.,-0.4)) ;
#213=CARTESIAN_POINT('Axis2P3D Location',(24.,40.,-0.4)) ;
#217=CARTESIAN_POINT('Vertex',(27.,40.,-0.4)) ;
#220=CARTESIAN_POINT('Line Origine',(27.,0.,-0.4)) ;
#224=CARTESIAN_POINT('Vertex',(27.,-40.,-0.4)) ;
#227=CARTESIAN_POINT('Axis2P3D Location',(24.,-40.,-0.4)) ;
#231=CARTESIAN_POINT('Vertex',(24.,-43.,-0.4)) ;
#234=CARTESIAN_POINT('Line Origine',(0.,-43.,-0.4)) ;
#238=CARTESIAN_POINT('Vertex',(-24.,-43.,-0.4)) ;
#241=CARTESIAN_POINT('Axis2P3D Location',(-24.,-40.,-0.4)) ;
#257=CARTESIAN_POINT('Axis2P3D Location',(0.,0.,0.4)) ;
#262=CARTESIAN_POINT('Axis2P3D Location',(-24.,-40.,0.4)) ;
#266=CARTESIAN_POINT('Vertex',(-24.,-43.,0.4)) ;
#269=CARTESIAN_POINT('Line Origine',(0.,-43.,0.4)) ;
#273=CARTESIAN_POINT('Vertex',(24.,-43.,0.4)) ;
#276=CARTESIAN_POINT('Axis2P3D Location',(24.,-40.,0.4)) ;
#280=CARTESIAN_POINT('Vertex',(27.,-40.,0.4)) ;
#283=CARTESIAN_POINT('Line Origine',(27.,0.,0.4)) ;
#287=CARTESIAN_POINT('Vertex',(27.,40.,0.4)) ;
#290=CARTESIAN_POINT('Axis2P3D Location',(24.,40.,0.4)) ;
#306=CARTESIAN_POINT('Axis2P3D Location',(24.,40.,0.)) ;
#311=CARTESIAN_POINT('Line Origine',(27.,40.,0.)) ;
#323=CARTESIAN_POINT('Axis2P3D Location',(27.,0.,0.)) ;
#328=CARTESIAN_POINT('Line Origine',(27.,-40.,-5.55111512313E-017)) ;
#340=CARTESIAN_POINT('Axis2P3D Location',(0.,-43.,0.)) ;
#345=CARTESIAN_POINT('Line Origine',(24.,-43.,-5.55111512313E-017)) ;
#350=CARTESIAN_POINT('Line Origine',(-24.,-43.,-5.55111512313E-017)) ;
#362=CARTESIAN_POINT('Axis2P3D Location',(-24.,-40.,0.)) ;
#374=CARTESIAN_POINT('Axis2P3D Location',(24.,-40.,0.)) ;
#396=CARTESIAN_POINT('NONE',(0.,0.,0.)) ;
#397=CARTESIAN_POINT('NONE',(22.775246088,45.368411347,1.0749034746)) ;
#62=DIRECTION('Vector Direction',(0.,0.939692620786,0.342020143326)) ;
#74=DIRECTION('Vector Direction',(0.835384430991,0.187996887938,-0.516517204538)) ;
#91=DIRECTION('NONE',(1.,0.,0.)) ;
#92=DIRECTION('NONE',(0.,0.,1.)) ;
#93=DIRECTION('NONE',(1.,0.,0.)) ;
#94=DIRECTION('NONE',(0.,0.,1.)) ;
#107=DIRECTION('Axis2P3D Direction',(0.,1.,-0.)) ;
#108=DIRECTION('Axis2P3D XDirection',(-1.,0.,0.)) ;
#112=DIRECTION('Vector Direction',(-1.,0.,0.)) ;
#121=DIRECTION('Vector Direction',(0.,0.,1.)) ;
#128=DIRECTION('Vector Direction',(-1.,0.,0.)) ;
#135=DIRECTION('Vector Direction',(0.,0.,1.)) ;
#147=DIRECTION('Axis2P3D Direction',(0.,0.,1.)) ;
#148=DIRECTION('Axis2P3D XDirection',(-1.60812264968E-016,1.,0.)) ;
#152=DIRECTION('Axis2P3D Direction',(0.,0.,1.)) ;
#159=DIRECTION('Vector Direction',(0.,0.,1.)) ;
#166=DIRECTION('Axis2P3D Direction',(0.,0.,1.)) ;
#178=DIRECTION('Axis2P3D Direction',(1.,0.,0.)) ;
#179=DIRECTION('Axis2P3D XDirection',(0.,1.,0.)) ;
#183=DIRECTION('Vector Direction',(0.,1.,0.)) ;
#190=DIRECTION('Vector Direction',(0.,0.,1.)) ;
#197=DIRECTION('Vector Direction',(0.,1.,0.)) ;
#209=DIRECTION('Axis2P3D Direction',(0.,0.,1.)) ;
#210=DIRECTION('Axis2P3D XDirection',(1.,0.,0.)) ;
#214=DIRECTION('Axis2P3D Direction',(0.,0.,1.)) ;
#221=DIRECTION('Vector Direction',(0.,1.,0.)) ;
#228=DIRECTION('Axis2P3D Direction',(0.,0.,1.)) ;
#235=DIRECTION('Vector Direction',(-1.,0.,0.)) ;
#242=DIRECTION('Axis2P3D Direction',(0.,0.,1.)) ;
#258=DIRECTION('Axis2P3D Direction',(0.,0.,1.)) ;
#259=DIRECTION('Axis2P3D XDirection',(1.,0.,0.)) ;
#263=DIRECTION('Axis2P3D Direction',(0.,0.,1.)) ;
#270=DIRECTION('Vector Direction',(-1.,0.,0.)) ;
#277=DIRECTION('Axis2P3D Direction',(0.,0.,1.)) ;
#284=DIRECTION('Vector Direction',(0.,1.,0.)) ;
#291=DIRECTION('Axis2P3D Direction',(0.,0.,1.)) ;
#307=DIRECTION('Axis2P3D Direction',(0.,0.,-1.)) ;
#308=DIRECTION('Axis2P3D XDirection',(1.60812264968E-016,1.,0.)) ;
#312=DIRECTION('Vector Direction',(0.,0.,-1.)) ;
#324=DIRECTION('Axis2P3D Direction',(1.,0.,0.)) ;
#325=DIRECTION('Axis2P3D XDirection',(0.,1.,0.)) ;
#329=DIRECTION('Vector Direction',(0.,0.,1.)) ;
#341=DIRECTION('Axis2P3D Direction',(0.,1.,-0.)) ;
#342=DIRECTION('Axis2P3D XDirection',(-1.,0.,0.)) ;
#346=DIRECTION('Vector Direction',(0.,0.,1.)) ;
#351=DIRECTION('Vector Direction',(0.,0.,1.)) ;
#363=DIRECTION('Axis2P3D Direction',(0.,0.,-1.)) ;
#364=DIRECTION('Axis2P3D XDirection',(-1.60812264968E-016,-1.,0.)) ;
#375=DIRECTION('Axis2P3D Direction',(0.,0.,1.)) ;
#376=DIRECTION('Axis2P3D XDirection',(1.60812264968E-016,-1.,0.)) ;
#398=DIRECTION('NONE',(1.,0.,0.)) ;
#399=DIRECTION('NONE',(0.,0.,1.)) ;
#400=DIRECTION('NONE',(0.835384430991,0.187996887938,-0.516517204538)) ;
#401=DIRECTION('NONE',(0.549666128171,-0.285718302819,0.785004585321)) ;
#87=AXIS2_PLACEMENT_3D(' ',#90,#94,#93) ;
#88=AXIS2_PLACEMENT_3D(' ',#89,#92,#91) ;
#109=AXIS2_PLACEMENT_3D('Plane Axis2P3D',#106,#107,#108) ;
#149=AXIS2_PLACEMENT_3D('Cylinder Axis2P3D',#146,#147,#148) ;
#153=AXIS2_PLACEMENT_3D('Circle Axis2P3D',#151,#152,$) ;
#167=AXIS2_PLACEMENT_3D('Circle Axis2P3D',#165,#166,$) ;
#180=AXIS2_PLACEMENT_3D('Plane Axis2P3D',#177,#178,#179) ;
#211=AXIS2_PLACEMENT_3D('Plane Axis2P3D',#208,#209,#210) ;
#215=AXIS2_PLACEMENT_3D('Circle Axis2P3D',#213,#214,$) ;
#229=AXIS2_PLACEMENT_3D('Circle Axis2P3D',#227,#228,$) ;
#243=AXIS2_PLACEMENT_3D('Circle Axis2P3D',#241,#242,$) ;
#260=AXIS2_PLACEMENT_3D('Plane Axis2P3D',#257,#258,#259) ;
#264=AXIS2_PLACEMENT_3D('Circle Axis2P3D',#262,#263,$) ;
#278=AXIS2_PLACEMENT_3D('Circle Axis2P3D',#276,#277,$) ;
#292=AXIS2_PLACEMENT_3D('Circle Axis2P3D',#290,#291,$) ;
#309=AXIS2_PLACEMENT_3D('Cylinder Axis2P3D',#306,#307,#308) ;
#326=AXIS2_PLACEMENT_3D('Plane Axis2P3D',#323,#324,#325) ;
#343=AXIS2_PLACEMENT_3D('Plane Axis2P3D',#340,#341,#342) ;
#365=AXIS2_PLACEMENT_3D('Cylinder Axis2P3D',#362,#363,#364) ;
#377=AXIS2_PLACEMENT_3D('Cylinder Axis2P3D',#374,#375,#376) ;
#394=AXIS2_PLACEMENT_3D(' ',#397,#401,#400) ;
#395=AXIS2_PLACEMENT_3D(' ',#396,#399,#398) ;
#45=PRODUCT_DEFINITION_SHAPE(' ',' ',#17) ;
#60=PRODUCT_DEFINITION_SHAPE(' ',' ',#57) ;
#83=PRODUCT_DEFINITION_SHAPE(' ',' ',#82) ;
#104=PRODUCT_DEFINITION_SHAPE(' ',' ',#101) ;
#390=PRODUCT_DEFINITION_SHAPE(' ',' ',#389) ;
#69=COMPOSITE_CURVE('Schizzo.1',(#68),.U.) ;
#81=COMPOSITE_CURVE('Schizzo.3',(#80),.U.) ;
#68=COMPOSITE_CURVE_SEGMENT(.DISCONTINUOUS.,.T.,#67) ;
#80=COMPOSITE_CURVE_SEGMENT(.DISCONTINUOUS.,.T.,#79) ;
#34=APPROVAL_PERSON_ORGANIZATION(#28,#24,#22) ;
#28=PERSON_AND_ORGANIZATION(#25,#26) ;
#25=PERSON(' ',' ',' ',$,$,$) ;
#26=ORGANIZATION(' ',' ',' ') ;
#24=APPROVAL(#23,' ') ;
#23=APPROVAL_STATUS('not_yet_approved') ;
#22=APPROVAL_ROLE('APPROVER') ;
#13=DATE_AND_TIME(#11,#12) ;
#12=LOCAL_TIME(9,29,17.,#10) ;
#10=COORDINATED_UNIVERSAL_TIME_OFFSET(0,0,.AHEAD.) ;
#140=ORIENTED_EDGE('',*,*,#119,.F.) ;
#141=ORIENTED_EDGE('',*,*,#126,.T.) ;
#142=ORIENTED_EDGE('',*,*,#133,.T.) ;
#143=ORIENTED_EDGE('',*,*,#138,.F.) ;
#171=ORIENTED_EDGE('',*,*,#126,.F.) ;
#172=ORIENTED_EDGE('',*,*,#157,.T.) ;
#173=ORIENTED_EDGE('',*,*,#164,.T.) ;
#174=ORIENTED_EDGE('',*,*,#169,.F.) ;
#202=ORIENTED_EDGE('',*,*,#164,.F.) ;
#203=ORIENTED_EDGE('',*,*,#188,.F.) ;
#204=ORIENTED_EDGE('',*,*,#195,.T.) ;
#205=ORIENTED_EDGE('',*,*,#200,.T.) ;
#247=ORIENTED_EDGE('',*,*,#219,.T.) ;
#248=ORIENTED_EDGE('',*,*,#226,.F.) ;
#249=ORIENTED_EDGE('',*,*,#233,.F.) ;
#250=ORIENTED_EDGE('',*,*,#240,.F.) ;
#251=ORIENTED_EDGE('',*,*,#245,.T.) ;
#252=ORIENTED_EDGE('',*,*,#188,.T.) ;
#253=ORIENTED_EDGE('',*,*,#157,.F.) ;
#254=ORIENTED_EDGE('',*,*,#119,.T.) ;
#296=ORIENTED_EDGE('',*,*,#133,.F.) ;
#297=ORIENTED_EDGE('',*,*,#169,.T.) ;
#298=ORIENTED_EDGE('',*,*,#200,.F.) ;
#299=ORIENTED_EDGE('',*,*,#268,.F.) ;
#300=ORIENTED_EDGE('',*,*,#275,.T.) ;
#301=ORIENTED_EDGE('',*,*,#282,.T.) ;
#302=ORIENTED_EDGE('',*,*,#289,.T.) ;
#303=ORIENTED_EDGE('',*,*,#294,.F.) ;
#317=ORIENTED_EDGE('',*,*,#294,.T.) ;
#318=ORIENTED_EDGE('',*,*,#315,.F.) ;
#319=ORIENTED_EDGE('',*,*,#219,.F.) ;
#320=ORIENTED_EDGE('',*,*,#138,.T.) ;
#334=ORIENTED_EDGE('',*,*,#289,.F.) ;
#335=ORIENTED_EDGE('',*,*,#332,.F.) ;
#336=ORIENTED_EDGE('',*,*,#226,.T.) ;
#337=ORIENTED_EDGE('',*,*,#315,.T.) ;
#356=ORIENTED_EDGE('',*,*,#349,.T.) ;
#357=ORIENTED_EDGE('',*,*,#275,.F.) ;
#358=ORIENTED_EDGE('',*,*,#354,.F.) ;
#359=ORIENTED_EDGE('',*,*,#240,.T.) ;
#368=ORIENTED_EDGE('',*,*,#268,.T.) ;
#369=ORIENTED_EDGE('',*,*,#195,.F.) ;
#370=ORIENTED_EDGE('',*,*,#245,.F.) ;
#371=ORIENTED_EDGE('',*,*,#354,.T.) ;
#380=ORIENTED_EDGE('',*,*,#349,.F.) ;
#381=ORIENTED_EDGE('',*,*,#233,.T.) ;
#382=ORIENTED_EDGE('',*,*,#332,.T.) ;
#383=ORIENTED_EDGE('',*,*,#282,.F.) ;
#105=CLOSED_SHELL('Closed Shell',(#145,#176,#207,#256,#305,#322,#339,#361,#373,#385)) ;
#86=ITEM_DEFINED_TRANSFORMATION(' ',' ',#88,#87) ;
#393=ITEM_DEFINED_TRANSFORMATION(' ',' ',#395,#394) ;
#63=VECTOR('Line Direction',#62,1.) ;
#75=VECTOR('Line Direction',#74,1.) ;
#113=VECTOR('Line Direction',#112,1.) ;
#122=VECTOR('Line Direction',#121,1.) ;
#129=VECTOR('Line Direction',#128,1.) ;
#136=VECTOR('Line Direction',#135,1.) ;
#160=VECTOR('Line Direction',#159,1.) ;
#184=VECTOR('Line Direction',#183,1.) ;
#191=VECTOR('Line Direction',#190,1.) ;
#198=VECTOR('Line Direction',#197,1.) ;
#222=VECTOR('Line Direction',#221,1.) ;
#236=VECTOR('Line Direction',#235,1.) ;
#271=VECTOR('Line Direction',#270,1.) ;
#285=VECTOR('Line Direction',#284,1.) ;
#313=VECTOR('Line Direction',#312,1.) ;
#330=VECTOR('Line Direction',#329,1.) ;
#347=VECTOR('Line Direction',#346,1.) ;
#352=VECTOR('Line Direction',#351,1.) ;
#387=ADVANCED_BREP_SHAPE_REPRESENTATION('NONE',(#386),#96) ;
#44=SHAPE_REPRESENTATION(' ',(#87,#394),#50) ;
#53=SHAPE_REPRESENTATION(' ',(#88),#52) ;
#97=SHAPE_REPRESENTATION(' ',(#395),#96) ;
#145=ADVANCED_FACE('PartBody',(#144),#110,.T.) ;
#176=ADVANCED_FACE('PartBody',(#175),#150,.T.) ;
#207=ADVANCED_FACE('PartBody',(#206),#181,.F.) ;
#256=ADVANCED_FACE('PartBody',(#255),#212,.F.) ;
#305=ADVANCED_FACE('PartBody',(#304),#261,.T.) ;
#322=ADVANCED_FACE('PartBody',(#321),#310,.T.) ;
#339=ADVANCED_FACE('PartBody',(#338),#327,.T.) ;
#361=ADVANCED_FACE('PartBody',(#360),#344,.F.) ;
#373=ADVANCED_FACE('PartBody',(#372),#366,.T.) ;
#385=ADVANCED_FACE('PartBody',(#384),#378,.T.) ;
#4=APPLICATION_PROTOCOL_DEFINITION('international standard','config_control_design',1994,#1) ;
#35=APPROVAL_DATE_TIME(#13,#24) ;
#386=MANIFOLD_SOLID_BREP('PartBody',#105) ;
#11=CALENDAR_DATE(2023,25,9) ;
#33=CC_DESIGN_APPROVAL(#24,(#19,#6,#17)) ;
#21=CC_DESIGN_DATE_AND_TIME_ASSIGNMENT(#13,#20,(#19)) ;
#32=CC_DESIGN_DATE_AND_TIME_ASSIGNMENT(#13,#31,(#17)) ;
#20=DATE_TIME_ROLE('classification_date') ;
#31=DATE_TIME_ROLE('creation_date') ;
#30=CC_DESIGN_PERSON_AND_ORGANIZATION_ASSIGNMENT(#28,#29,(#19)) ;
#36=CC_DESIGN_PERSON_AND_ORGANIZATION_ASSIGNMENT(#28,#37,(#6)) ;
#38=CC_DESIGN_PERSON_AND_ORGANIZATION_ASSIGNMENT(#28,#39,(#6,#17)) ;
#40=CC_DESIGN_PERSON_AND_ORGANIZATION_ASSIGNMENT(#28,#41,(#5)) ;
#29=PERSON_AND_ORGANIZATION_ROLE('classification_officer') ;
#37=PERSON_AND_ORGANIZATION_ROLE('design_supplier') ;
#39=PERSON_AND_ORGANIZATION_ROLE('creator') ;
#41=PERSON_AND_ORGANIZATION_ROLE('design_owner') ;
#42=CC_DESIGN_SECURITY_CLASSIFICATION(#19,(#6,#82,#389)) ;
#59=DOCUMENT('33','RIFERIMENTO_VISTA.CATPart','CATPart document',#58) ;
#103=DOCUMENT('34','DD3825.CATPart','CATPart document',#102) ;
#58=DOCUMENT_TYPE('') ;
#102=DOCUMENT_TYPE('') ;
#154=CIRCLE('generated circle',#153,3.) ;
#168=CIRCLE('generated circle',#167,3.) ;
#216=CIRCLE('generated circle',#215,3.) ;
#230=CIRCLE('generated circle',#229,3.) ;
#244=CIRCLE('generated circle',#243,3.) ;
#265=CIRCLE('generated circle',#264,3.) ;
#279=CIRCLE('generated circle',#278,3.) ;
#293=CIRCLE('generated circle',#292,3.) ;
#84=CONTEXT_DEPENDENT_SHAPE_REPRESENTATION(#85,#83) ;
#391=CONTEXT_DEPENDENT_SHAPE_REPRESENTATION(#392,#390) ;
#72=SHAPE_REPRESENTATION_RELATIONSHIP(' ',' ',#53,#70) ;
#388=SHAPE_REPRESENTATION_RELATIONSHIP(' ',' ',#97,#387) ;
#150=CYLINDRICAL_SURFACE('generated cylinder',#149,3.) ;
#310=CYLINDRICAL_SURFACE('generated cylinder',#309,3.) ;
#366=CYLINDRICAL_SURFACE('generated cylinder',#365,3.) ;
#378=CYLINDRICAL_SURFACE('generated cylinder',#377,3.) ;
#3=DESIGN_CONTEXT(' ',#1,'design') ;
#119=EDGE_CURVE('',#116,#118,#114,.F.) ;
#126=EDGE_CURVE('',#116,#125,#123,.T.) ;
#133=EDGE_CURVE('',#125,#132,#130,.F.) ;
#138=EDGE_CURVE('',#118,#132,#137,.T.) ;
#157=EDGE_CURVE('',#116,#156,#154,.T.) ;
#164=EDGE_CURVE('',#156,#163,#161,.T.) ;
#169=EDGE_CURVE('',#125,#163,#168,.T.) ;
#188=EDGE_CURVE('',#187,#156,#185,.T.) ;
#195=EDGE_CURVE('',#187,#194,#192,.T.) ;
#200=EDGE_CURVE('',#194,#163,#199,.T.) ;
#219=EDGE_CURVE('',#118,#218,#216,.F.) ;
#226=EDGE_CURVE('',#225,#218,#223,.T.) ;
#233=EDGE_CURVE('',#232,#225,#230,.T.) ;
#240=EDGE_CURVE('',#239,#232,#237,.F.) ;
#245=EDGE_CURVE('',#239,#187,#244,.F.) ;
#268=EDGE_CURVE('',#267,#194,#265,.F.) ;
#275=EDGE_CURVE('',#267,#274,#272,.F.) ;
#282=EDGE_CURVE('',#274,#281,#279,.T.) ;
#289=EDGE_CURVE('',#281,#288,#286,.T.) ;
#294=EDGE_CURVE('',#132,#288,#293,.F.) ;
#315=EDGE_CURVE('',#218,#288,#314,.F.) ;
#332=EDGE_CURVE('',#225,#281,#331,.T.) ;
#349=EDGE_CURVE('',#232,#274,#348,.T.) ;
#354=EDGE_CURVE('',#239,#267,#353,.T.) ;
#139=EDGE_LOOP('',(#140,#141,#142,#143)) ;
#170=EDGE_LOOP('',(#171,#172,#173,#174)) ;
#201=EDGE_LOOP('',(#202,#203,#204,#205)) ;
#246=EDGE_LOOP('',(#247,#248,#249,#250,#251,#252,#253,#254)) ;
#295=EDGE_LOOP('',(#296,#297,#298,#299,#300,#301,#302,#303)) ;
#316=EDGE_LOOP('',(#317,#318,#319,#320)) ;
#333=EDGE_LOOP('',(#334,#335,#336,#337)) ;
#355=EDGE_LOOP('',(#356,#357,#358,#359)) ;
#367=EDGE_LOOP('',(#368,#369,#370,#371)) ;
#379=EDGE_LOOP('',(#380,#381,#382,#383)) ;
#144=FACE_OUTER_BOUND('',#139,.T.) ;
#175=FACE_OUTER_BOUND('',#170,.T.) ;
#206=FACE_OUTER_BOUND('',#201,.T.) ;
#255=FACE_OUTER_BOUND('',#246,.T.) ;
#304=FACE_OUTER_BOUND('',#295,.T.) ;
#321=FACE_OUTER_BOUND('',#316,.T.) ;
#338=FACE_OUTER_BOUND('',#333,.T.) ;
#360=FACE_OUTER_BOUND('',#355,.T.) ;
#372=FACE_OUTER_BOUND('',#367,.T.) ;
#384=FACE_OUTER_BOUND('',#379,.T.) ;
#71=GEOMETRIC_SET('NONE',(#69,#81)) ;
#70=GEOMETRICALLY_BOUNDED_SURFACE_SHAPE_REPRESENTATION('NONE',(#71),#52) ;
#49=UNCERTAINTY_MEASURE_WITH_UNIT(LENGTH_MEASURE(0.005),#46,'distance_accuracy_value','CONFUSED CURVE UNCERTAINTY') ;
#51=UNCERTAINTY_MEASURE_WITH_UNIT(LENGTH_MEASURE(0.005),#46,'distance_accuracy_value','CONFUSED CURVE UNCERTAINTY') ;
#95=UNCERTAINTY_MEASURE_WITH_UNIT(LENGTH_MEASURE(0.005),#46,'distance_accuracy_value','CONFUSED CURVE UNCERTAINTY') ;
#64=LINE('Line',#61,#63) ;
#76=LINE('Line',#73,#75) ;
#114=LINE('Line',#111,#113) ;
#123=LINE('Line',#120,#122) ;
#130=LINE('Line',#127,#129) ;
#137=LINE('Line',#134,#136) ;
#161=LINE('Line',#158,#160) ;
#185=LINE('Line',#182,#184) ;
#192=LINE('Line',#189,#191) ;
#199=LINE('Line',#196,#198) ;
#223=LINE('Line',#220,#222) ;
#237=LINE('Line',#234,#236) ;
#272=LINE('Line',#269,#271) ;
#286=LINE('Line',#283,#285) ;
#314=LINE('Line',#311,#313) ;
#331=LINE('Line',#328,#330) ;
#348=LINE('Line',#345,#347) ;
#353=LINE('Line',#350,#352) ;
#2=MECHANICAL_CONTEXT(' ',#1,'mechanical') ;
#82=NEXT_ASSEMBLY_USAGE_OCCURRENCE('RIFERIMENTO_VISTA.1','RIFERIMENTO_VISTA.1','',#17,#57,'RIFERIMENTO_VISTA.1') ;
#389=NEXT_ASSEMBLY_USAGE_OCCURRENCE('DD3825.1','DD3825.1','',#17,#101,'DD3825.1') ;
#27=PERSONAL_ADDRESS(' ',' ',' ',' ',' ',' ',' ',' ',' ',' ',' ',' ',(#25),' ') ;
#110=PLANE('',#109) ;
#181=PLANE('',#180) ;
#212=PLANE('',#211) ;
#261=PLANE('',#260) ;
#327=PLANE('',#326) ;
#344=PLANE('',#343) ;
#7=PRODUCT_CATEGORY('part',$) ;
#14=PRODUCT_CATEGORY('part',$) ;
#9=PRODUCT_CATEGORY_RELATIONSHIP(' ',' ',#7,#8) ;
#16=PRODUCT_CATEGORY_RELATIONSHIP(' ',' ',#14,#15) ;
#6=PRODUCT_DEFINITION_FORMATION_WITH_SPECIFIED_SOURCE('',' ',#5,.NOT_KNOWN.) ;
#56=PRODUCT_DEFINITION_FORMATION_WITH_SPECIFIED_SOURCE('',' ',#55,.NOT_KNOWN.) ;
#100=PRODUCT_DEFINITION_FORMATION_WITH_SPECIFIED_SOURCE('',' ',#99,.NOT_KNOWN.) ;
#57=PRODUCT_DEFINITION_WITH_ASSOCIATED_DOCUMENTS('',' ',#56,#3,(#59)) ;
#101=PRODUCT_DEFINITION_WITH_ASSOCIATED_DOCUMENTS('',' ',#100,#3,(#103)) ;
#8=PRODUCT_RELATED_PRODUCT_CATEGORY('detail',$,(#55,#99)) ;
#15=PRODUCT_RELATED_PRODUCT_CATEGORY('part',$,(#5)) ;
#43=SHAPE_DEFINITION_REPRESENTATION(#45,#44) ;
#54=SHAPE_DEFINITION_REPRESENTATION(#60,#53) ;
#98=SHAPE_DEFINITION_REPRESENTATION(#104,#97) ;
#67=TRIMMED_CURVE('',#64,(#65),(#66),.T.,.CARTESIAN.) ;
#79=TRIMMED_CURVE('',#76,(#77),(#78),.T.,.CARTESIAN.) ;
#116=VERTEX_POINT('',#115) ;
#118=VERTEX_POINT('',#117) ;
#125=VERTEX_POINT('',#124) ;
#132=VERTEX_POINT('',#131) ;
#156=VERTEX_POINT('',#155) ;
#163=VERTEX_POINT('',#162) ;
#187=VERTEX_POINT('',#186) ;
#194=VERTEX_POINT('',#193) ;
#218=VERTEX_POINT('',#217) ;
#225=VERTEX_POINT('',#224) ;
#232=VERTEX_POINT('',#231) ;
#239=VERTEX_POINT('',#238) ;
#267=VERTEX_POINT('',#266) ;
#274=VERTEX_POINT('',#273) ;
#281=VERTEX_POINT('',#280) ;
#288=VERTEX_POINT('',#287) ;
#46=(LENGTH_UNIT()NAMED_UNIT(*)SI_UNIT(.MILLI.,.METRE.)) ;
#47=(NAMED_UNIT(*)PLANE_ANGLE_UNIT()SI_UNIT($,.RADIAN.)) ;
#48=(NAMED_UNIT(*)SI_UNIT($,.STERADIAN.)SOLID_ANGLE_UNIT()) ;
#50=(GEOMETRIC_REPRESENTATION_CONTEXT(3)GLOBAL_UNCERTAINTY_ASSIGNED_CONTEXT((#49))GLOBAL_UNIT_ASSIGNED_CONTEXT((#46,#47,#48))REPRESENTATION_CONTEXT(' ',' ')) ;
#52=(GEOMETRIC_REPRESENTATION_CONTEXT(3)GLOBAL_UNCERTAINTY_ASSIGNED_CONTEXT((#51))GLOBAL_UNIT_ASSIGNED_CONTEXT((#46,#47,#48))REPRESENTATION_CONTEXT(' ',' ')) ;
#96=(GEOMETRIC_REPRESENTATION_CONTEXT(3)GLOBAL_UNCERTAINTY_ASSIGNED_CONTEXT((#95))GLOBAL_UNIT_ASSIGNED_CONTEXT((#46,#47,#48))REPRESENTATION_CONTEXT(' ',' ')) ;
#85=(REPRESENTATION_RELATIONSHIP(' ',' ',#53,#44)REPRESENTATION_RELATIONSHIP_WITH_TRANSFORMATION(#86)SHAPE_REPRESENTATION_RELATIONSHIP()) ;
#392=(REPRESENTATION_RELATIONSHIP(' ',' ',#97,#44)REPRESENTATION_RELATIONSHIP_WITH_TRANSFORMATION(#393)SHAPE_REPRESENTATION_RELATIONSHIP()) ;
ENDSEC;
END-ISO-10303-21;
